GLOBAL GUITAR TABS

http://www.globaltabs.50megs.com



#----------------------------------PLEASE NOTE----------------------------------#
# This file is the author's own work and represents their interpretation of the #
# song. You may only use this file for private study, scholarship, or research. #
#-------------------------------------------------------------------------------#

AS YOU ARE

Capo on the 3rd fret

Chords to be played:

C: x32010
Em: 022000
G: 320033
F: x33210
Am: x02210
D: xx0232
Fm: x33110

Intro: Repeat C

Verse: C Em G

Chorus: F Am D

Verse

Chorus

Play one verse and one chorus over Andy's solo

Then play the following when the singing starts again:

C Em F Am F Em F Fm

I'm not too sure about the 3 'outro' chords. I think the first one's C
and the third one's Am.

Thanks to: Brett, brett@kairi.freeserve.co.uk

(solo, Clean guitar or with very slight distortion)

e|---------------------------------------------
b|---------------------------------------------
g|-----------------8-p7-h8---7-----------------
d|------------8-------------------8------------
a|----8/10----------------------------10---8---
E|---------------------------------------------

e|--------------------------------------------------------
b|--------------------------------------------------------
g|-----------------7---10----7----------------------------
d|---------8-h11-----------------11----8-h11---8--------8-
a|--8-h11------------------------------------------11-----
E|--------------------------------------------------------

e|-------------------8--------------------
b|-----------8--11------11---8-8----------
g|---8---10-----------------------10------
d|----------------------------------------
a|----------------------------------------
E|----------------------------------------

e|----------------------------------------------------
b|----------------------------------------------------
g|----8--7---------------7--8--10---12---10~~~feedback
d|------------10--8--10-------------------------------
a|----------------------------------------------------
E|----------------------------------------------------


Guitar with distortion:

e|-------------------------------------------
b|-----------11------------------------------
g|--10^(12)------10^(12)-8-----8-------------
d|--------------------------10-----10---8----
a|-------------------------------------------
E|-------------------------------------------
                 *string bends


e|--------------------------------------------------
b|--------------------------------------------------
g|--------------------------------------------------
d|--------------------------------------------------
a|--10---8------8-\6-h8-/10-----8---6---------------
E|--------------------------------------8-8----6--8-

Thanks to: by: Julien, julien_bain@yahoo.co.uk