GLOBAL GUITAR TABS

http://www.globaltabs.50megs.com



#----------------------------------PLEASE NOTE----------------------------------#
# This file is the author's own work and represents their interpretation of the #
# song. You may only use this file for private study, scholarship, or research. #
#-------------------------------------------------------------------------------#

FUNNY THING

Verse chords (x2)
I'm not putting rhythm, just the main placement of chords...

 1   2   3   4    1   2   3   4    1   2   3   4    1   2   3   4  =20
|2---------------|3-----------3---|0---------------|0---------------|E
|3---------------|3-----------3---|0---------------|2---------------|B
|2---------------|0-----------0---|0---------------|2---------------|G
|0---------------|0-----------0---|2---------------|2---------------|D
|X---------------|2-----------2---|2---------------|0---------------|A
|X---------------|3-----------2---|0---------------|X---------------|E

 D                G          G/F#  Em               A

Chorus chords

 1   2   3   4    1   2   3   4    1   2   3   4    1   2   3   4  =20
|2---------------|0---------------|0---------------|3---------------|E
|3---------------|3---------------|3---------------|3---------------|B
|2---------------|2---------------|2---------------|0---------------|G
|0---------------|2---------------|0---------------|0---------------|D
|X---------------|3---------------|2---------------|2---------------|A
|X---------------|X---------------|X---------------|0---------------|E
 D                C6+9             Dsus2/B          Em7


 1   2   3   4    1   2   3   4    1   2   3   4    1   2   3   4  =20
|2---------------|0---------------|2-------3-------|2--------0------|E
|3---------------|3---------------|3-------3-------|3--------2------|B
|2---------------|0---------------|2-------0-------|2--------2------|G
|0---------------|3---------------|0-------0-------|0--------2------|D
|X---------------|0---------------|X-------2-------|X--------0------|A
|X---------------|X---------------|X-------3-------|X--------X------|E
 D                A7               D       G        D        A

Verse1

Chorus

Verse2

Repeat Chorus

Instrumental (as Verse chords)

Repeat Chorus

2nd Instrumental

Verse3

Thanks to: Geoff, Geoff@sound-lab.demon.co.uk