GLOBAL GUITAR TABS

http://www.globaltabs.50megs.com

#----------------------------------PLEASE NOTE---------------------------------#
#This file is the author's own work and represents their interpretation of the #
#song. You may only use this file for private study, scholarship, or research. #
#------------------------------------------------------------------------------#
#
Date: Sun, 21 Jan 1996 22:16:05 -0500
From: wenrick@ViaNet.on.ca (Richard Paquette)
Subject: btab: What It Is RED HOT CHILI PEPPERS

>To: slehman@mit.edu
>From: wenrick@vianet.on.ca (Richard Paquette)
>Subject: btab: What It Is RED HOT CHILI PEPPERS
>
>What It Is by RHCP   
>>From the album Out in La   
>
>                         tr~~
>G-|--------------------|-----|------------------|--9//11-|
>D-|--------------------|-----|------------------|--9//11-|
>A-|--------------------|-----|------------------|--------|
>E-|-O---0--0-----0-0---|h1p0-|-0---0--0----0-0--|--------|
>    x   x  x     x x    x x    x   x  x    x x
>
>G-|--------------------|-------------|--------------------|---------------|
>D-|--------------------|-5---5-------|--------------------|-5---5---------|
>A-|--------------------|-------------|--------------------|---------------|
>E-|-0---0--0----0-0h5h7|---*---5---7-|-0---0--0----0-0h5h7|---x---5-5-7-7-|
>    x   x  x    x x      p x p x   x   x   x  x    x x      p x p x x x x
>Verse:
>G-|-----------------------|-9--------------------|
>D-|-o--9------------------|--------------------o-|
>A-|-o--------------5--5h7-|-------------5-5h7--o-|
>E-|-----0--0h5h7----------|--0--0h5h7------------|
>
>Chorus:
>G-|-----------------|---------------------|
>D-|-o---------------|-------------------o-|
>A-|-o---------------|-------------------o-|
>E-|--7-3--0-0-3-5-7-|--7-3--0-0-7-7-5-3---|
>
>
>tr~~=trill
>x=slap
>p=pop
>9//11=slide from 9 to 11
>*=choked note
>h=hammer on
>|----------|
>|-o------o-|   = repeat everything between these symbols
>|-o------o-|
>|----------|
>
>
>
>Ryan Paquette
>wenrick@vianet.on.ca
>
Wendy, Richard & Jody Paquette
Wenrick Reg'd Perm.
Ontario, Canada
wenrick@vianet.on.ca


From slehman@MIT.EDU Thu Jan 25 22:00:26 1996
Received: from post-office.nevada.edu (post-office.nevada.edu [131.216.1.11]) by mailhost.tcs.tulane.edu (8.6.12/8.5) with ESMTP id QAA44713; Thu, 25 Jan 1996 16:00:22 -0600
Received: from MIT.EDU (PACIFIC-CARRIER-ANNEX.MIT.EDU [18.69.0.28]) by post-office.nevada.edu (8.6.12/8.6.4) with SMTP id NAA07088 for ; Thu, 25 Jan 1996 13:57:00 -0800
Received: from MIT.MIT.EDU by MIT.EDU with SMTP
	id AA06618; Thu, 25 Jan 96 16:54:55 EST
Received: from LIBERAL-EDUCATION.MIT.EDU by MIT.MIT.EDU (5.61/4.7) id AA20024; Thu, 25 Jan 96 16:55:05 EST
Message-Id: <9601252155.AA20024@MIT.MIT.EDU>
Date: Thu, 25 Jan 96 16:57:08 EDT
From: slehman@MIT.EDU (Scott A. Lehman)
To: guitar@nevada.edu
Subject: btab: What It Is, RED HOT CHILI PEPPERS
Status: RO

This file doens't have exactly what is found in the existing tab for the song, 
but it is close, and has quite a bit more added. I don't have the recording, but 
it could probably replace the current file without too much loss.

------- Forwarded Message

What It Is by RHCP   
>From the album Out in La   

                         tr~~
G-|--------------------|-----|------------------|--9//11-|
D-|--------------------|-----|------------------|--9//11-|
A-|--------------------|-----|------------------|--------|
E-|-O---0--0-----0-0---|h1p0-|-0---0--0----0-0--|--------|
    x   x  x     x x    x x    x   x  x    x x

G-|--------------------|-------------|--------------------|---------------|
D-|--------------------|-5---5-------|--------------------|-5---5---------|
A-|--------------------|-------------|--------------------|---------------|
E-|-0---0--0----0-0h5h7|---*---5---7-|-0---0--0----0-0h5h7|---x---5-5-7-7-|
    x   x  x    x x      p x p x   x   x   x  x    x x      p x p x x x x
Verse:
G-|-----------------------|-9--------------------|
D-|-o--9------------------|--------------------o-|
A-|-o--------------5--5h7-|-------------5-5h7--o-|
E-|-----0--0h5h7----------|--0--0h5h7------------|

Chorus:
G-|-----------------|---------------------|
D-|-o---------------|-------------------o-|
A-|-o---------------|-------------------o-|
E-|--7-3--0-0-3-5-7-|--7-3--0-0-7-7-5-3---|


tr~~=trill
x=slap
p=pop
9//11=slide from 9 to 11
*=choked note
h=hammer on
|----------|
|-o------o-|   = repeat everything between these symbols
|-o------o-|
|----------|



Ryan Paquette
wenrick@vianet.on.ca


------- End of Forwarded Message


#----------------------------------PLEASE NOTE---------------------------------#
#This file is the author's own work and represents their interpretation of the #
#song. You may only use this file for private study, scholarship, or research. #
#------------------------------------------------------------------------------##
From: marcus@interoz.com (Marcus Featherston)
Subject: What it is by the Red Hot Chili Peppers
Date: Tue, 21 Nov 95 19:51:47 Central Standard Time+0000

What It Is By The Red Hot Chili Peppers
>From the album Out In L.A

Trascribed by Dietrich Featherston

s-slap
p-pop
h-hammer-on

G-|----------------------|----------------------------|
D-|----------------------|------------p5----p5--------|
A-|----------------------|----------------------------|
E-|-s0-sx-s0-s0-sx-s0-s0-|-s0-s5h7-sx----sx----s5--s7-|

This is all of the song I have figured out so far;I'm only 13 and Idon't
even have a bass so it might be while before I have figured it out.

Marcus Featherston

marcus@interoz.com
mlf@falcon.nssf.af.mil
mfeathe@garnet.acns.fsu.edu

******************************************************************
****   http://www.interoz.com/usr/marcus/access.exe?marcus    ****
****                         OR                               ****
****   http://www.interoz.com/usr/marcus/marcus.htm           ****
****                                                          ****
****   Guitars, Amps, Astronomy, Pianos, Compilers,           ****
****            SW Reengineering, Compilers                   ****
******************************************************************