GLOBAL GUITAR TABS

http://www.globaltabs.50megs.com

From: Kcman1000@aol.com
Date: Fri, 19 Jul 2002 14:19:41 EDT
Subject: r/red_hot_chili_peppers/venice_queen.crd

Venice Queen Chords
Artist: Red Hot Chili Peppers
Album: By the Way

Intro/1st part of song=20

e-----7-----7-----7-----7---3-2-
B---5---5-----5-----5-----------
G-4-------4-----4-----4--------- x3
D-------------------------------
A-------------------------------
E-------------------------------

(play this once)

e-----7-----7-----7-----7----7---
B---5---5-----5-----5-----5----5-
G-4-------4-----4-----4-----4----=20
D--------------------------------
A--------------------------------
E--------------------------------

(then strum these chords)

e--0----0---
B--0----0---
G--0----2---
D--2----2---
A--3----0---
E-----------
  =20

2nd part of song
(play these chords fast)

e--0---0----
B--0---0----
G--0---0-x3-
D--2---2----
A--2---3----
E--0--------
  (We all want to tell her...)

e--0---0----
B--0---0----
G--2---0----
D--2---2----
A--0---3----
E-----------
(...love her)



Last part
(strum this progression)

e--0----0----0----0----
B--0----0----0----0----
G--6----4----2----7----
D--7----5----3----7----
A--7----5----3----5----
E--5----3----1---------


End on D