GLOBAL GUITAR TABS

http://www.globaltabs.50megs.com

Under The Bridge
By: David Harrison (blaze@interlog.com)
  w/correction by James Harding (insperatus@home.com)
Song: "Under The Bridge" by "RHCP"
Album: "Blood Sugar Sex Magik"(1991)




[Intro]: (00:00) - 1x
E|----------------------------|----------------------------|
B|-3-----------3--------------|-2--------------------------|
G|-------2--------2-----------|-------------3--------------|
D|----4-----4-----------------|-------4--------4---4-2-0---|
A|-5------------------4-2-0---|----4-----4---------------2-|
E|--------------------------4-|-2--------------------------|

E|----------------------------|----------------------------|
B|-3-----------3h5p3----------|----------------------------|
G|--------2---------2---------|-------------3--------------|
D|----4------4----------4/6-6-|-------4--------4---4-2-0---|
A|-4/5--5---------------5/7-7-|----4-----4---------------2-|
E|----------------------------|-2--------------------------|

E|----------------------------|----------------------------|
B|-3-----------3--------------|-2--------------------------|
G|-------2--------2-----------|-------------3--------------|
D|----4-----4-----------------|-------4--------4---4-2-0---|
A|-4/5----------------4-2-0---|----4-----4---------------2-|
E|--------------------------4-|-2--------------------------|

E|----------------------------|----------------------------|
B|-3-----------3h5p3----------|----------------------------|
G|--------2---------2---------|-------------3-------3------|
D|----4------4----------4/6-6-|-------4--------4------4----|
A|-4/5--5---------------5/7-7-|----4-----4-------4------4--|
E|----------------------------|-2--------------------------|


[Pre-Verse]: (00:28) - 1x
E|------------------4---------|---------------4--------|
B|-9-----7----------5--4---5--|--9-----7------5-----5--|
G|-9-----8-----4/6-6---4---6--|--9-----8------6-----6--|
D|-9-----9-----4/6-6---6---7--|--9-----9------6-----7--|
A|-7-------------------6---7--|--7------------------7--|
E|----------------------------|------------------------|

E|---------------4------------|---------------4--------|
B|--9-----7------5-----4---5--|--9-----7------5-----5--|
G|--9-----8------6-----4---6--|--9-----8------6-----6--|
D|--9-----9------6-----6---7--|--9-----9------6-----7--|
A|--7------------------6---7--|--7------------------7--|
E|----------------------------|------------------------|


[Fill 1]: (00:52) - 1x
E|-----|
B|--9--|
G|--8--|
D|--9--|
A|--7--|
E|-----|


[Verse]: (00:57) - 2x
E|----------------------------------------------------5h7p5--|
B|-------9---------7-----------------9----9---4----5-------5-|
G|-9-----9-----8---8---8h9p8-8-------9----9---4----6---------|
D|-9-----9-----9------9-----9---/11----11-----6----7---------|
A|-7----------------------------/11----11--------------------|
E|-----------------------------------------------------------|

E|---------------------------------------------------5-------|
B|-------9---------7-----------------9----9---5---------5----|
G|-9-----9-----8---8---8h9p8-8-------9----9---6------------6-|
D|-9-----9-----9------9-----9---/11----11-----7--------------|
A|-7----------------------------/11----11--------------------|
E|-----------------------------------------------------------|

***************************************************************
* There's a lot of variation in the verse so if you want to   *
* play it perfectly you'll have to listen to it and learn all *
* the variations yourself. If you just play this, thought, it *
* still sounds really good and is hard enough as it is.       *
***************************************************************


[Chorus]: (01:27) - 4x
E|---------------------11111111---------- 9-- 9-------|
B|-10-----9--9---------12121212-----10---10--10--xxxx-|
G|-11-----9--9---9-----11111111-----11---11--11--xxxx-|
D|-11-----9--9---9------------------11-----------xxxx-|
A|- 9-----7--7---7-------------------------------xxxx-|
E|----------------------------------------------------|


[Verse]: (01:49) - 3x


[Fill 1]: (02:23) - 1x


[Chorus]: (02:29) - 4x


[Outro]: (02:51) - 3x
E|--0--|--0--|--0--|--0--|
B|--0--|--0--|--0--|--0--|
G|--6--|--5--|--4--|--2--|
D|--7--|--7--|--5--|--3--|
A|--7--|--7--|--5--|--3--|
E|-----|-----|-----|-----|


[Fill 2]: (03:08) - 1x
E|--12--|--12--|--10--|--15--|
B|--10--|--10--|-- 9--|--12--|
G|--10--|--10--|-- 9--|--12--|
D|--10--|--10--|-- 9--|--12--|
A|------|------|------|------|
E|------|------|------|------|


[Outro]: (03:13) - Until End


[End On]:
E|---0---|
B|---0---|
G|---6---|
D|---7---|
A|---7---|
E|--(5)--|