GLOBAL GUITAR TABS

http://www.globaltabs.50megs.com

T1: Jace, labrealahabra@hotmail.com, Red Hot Chi: This song is mostly correct.  I know the chorus needs a little
work, but it is the best I can do.

S1: 

Intro:
e---------------------------------3-1-0------5-3-0------------|
B------3-----3---------3-----3----------1-3--------1-3--------|
G--2-5---2-5-------2-5---2-5----------------------------------|
D--------------3---------------3------------------------------|
A-------------------------------------------------------------|
E-------------------------------------------------------------|


Verse:
e-----------------------------6--6-|
B--8---8----8------8----8-----8--8-|
G----------------------------------|
D----------------------------------|
A----------------------------------|
E----------------------------------|
*You do this many times, but this is not the right time to hit the
notes.  The guitar player hits the notes at different times every time
you go through the verse.  This is just what what fret to hit on the
strings, nothing more, so don't e-mail
me and complain that this is not right. 


Chorus:
e-8-8-8-8-6-6-6-6-6-6-6-6-4-4-4-4-|
B-8-8-8-8-6-6-6-6-8-8-8-8-6-6-6-6-|
G---------------------------------|
D---------------------------------|
A---------------------------------|
E---------------------------------|


Bridge:
e---6-8-----------6-8-----|
B-8-----6-8-----8-----6-8-|
G-------------------------|
D-------------------------|
A-------------------------|
E-------------------------|
*This has the same rythm as the intro; it is just at a higher pitch.


Riff:
e--0----7----10-----12--15-|
B--------------------------|
G--------------------------|
D--------------------------|
A--------------------------|
E -------------------------|


Bridge 2:
e---12-15-17-8-10----12-15-17-8-10-|
B----------------------------------|
G----------------------------------|
D----------------------------------|
A----------------------------------|
E----------------------------------|


*Here are the lyrics for the song.  Just play what is above the lyrics
during the lyrics.


Intro


Verse:
Close to my skin
I'm falling in
Someone who's been
Sittn' by the phone
I'm left alone
In another zone
John says to live above hell
My will is well
No one is waiting
For me to fail 
My will could sail yeah


Intro


Verse:
It's such a waste to be wasted 
In the first place
I want to taste the taste of
Being face to face with common grace 
And when I walk alone I listen 
To our secret theme


Chorus:
Your solar eyes are like
Nothing I have ever seen
Somebody close
That can see right through
I'd take a fall and you know 
That I'd do anything
I will for you


Bridge


Verse:
Sailn' for the sun 
Cause there is one
Knows where I'm from
I care for you
I really do I really do
Come closer now
So you can lie
Right by my side
Sit alone in the sun
I wrote a letter to you
Getting over myself


Riff


Chorus:
*The words are the same as the chorus above.  This time you sing the
lyrics twice.


Bridge 2


Verse:
Close to my skin 
Someone who's been
I'm falling in
Disasters are
Just another star
Falling in my yard
John says to live above hell
My will is well
Long to be with you
Someone to tell
I love your smell
 
 

 
                   ^       ^    
                  \!/    < ! >
         This crap means absolutely nothing