GLOBAL GUITAR TABS

http://www.globaltabs.50megs.com

Date: Sun, 10 Nov 2002 13:26:07 +0000
From: Tom Hull 
Date: Tue, 04 Nov 2002
From: Leonardo Pignataro , Tom Hull
Subject: r/red_hot_chili_peppers/tear.tab

Artist: Red Hot Chili Peppers
Song: Tear
Album: By the Way

**Note: All of the following is Leonardo Pignataro's work appart from the 
solo 1 which I modified**


Key: C

Intro / Verse:
    C      G      Am
e|--------------------------|
B|---5~-----3~-----5~-------|
G|---5~-----4~-----5~-------|
D|---5~-----5~-----7~-------|
A|-3------------------------|
E|--------3------5----------|


Chorus:  C  C/B  Am  G?  F  Em  Dm  G
* C/B - X22010

After chorus: Am (4x)


Follow same pattern for chorus and after chorus as in the verses.


*****************************************************************
Solo 1 (2:15 - 2:31)

e|----------------------------------------|      |---------------|
B|----------------------------------------|      |---------------|
G|-9-10-12-10--9--------------------------|   4x |----10-14p12p10|
D|---------------10------9-10-12-10-9---9-|      |-12------------|
A|--------------------10--------------10--|      |---------------|
E|----------------------------------------|      |---------------|

e|----------------------------------------|      |---------------|
B|----------------------------------------|      |---------------|
G|-9-10-12-10--9----------------10-9------|   3x |----10-14p12p10|
D|---------------10------9-10-12-----12-10|      |-12------------|
A|--------------------10------------------|      |---------------|
E|----------------------------------------|      |---------------|

e|--------|
B|--------|
G|-7--9---|
D|-9--10--|
A|--------|
E|--------|

*****************************************************************

Solo 2 (3:16 - 3:59)

e|12----|10----|12----|10---12-13|12----|10--17--|12----|10----|12--15-|
B|------|------|------|----------|------|--------|------|------|-------|
G|------|------|------|----------|------|--------|------|------|-------|
D|------|------|------|----------|------|--------|------|------|-------|
A|------|------|------|----------|------|--------|------|------|-------|
E|------|------|------|----------|------|--------|------|------|-------|

Actually, the guitarist seems to play the notes above (or chords that
sound very much like those) repeatedly and _really_ fast.

e|-12-15-17-15-12---12-15-17-15-12---12-15-17-15-12~~----------|
B|-------------------------------------------------------------|
G|-------------------------------------------------------------| x2
D|-------------------------------------------------------------|
A|-------------------------------------------------------------|
E|-------------------------------------------------------------|

======================================================================

Tabbed by Leonardo Pignataro (secret_doom@hotmail.com), Tom Hull 
(hull_tom@hotmail.com)