GLOBAL GUITAR TABS

http://www.globaltabs.50megs.com

Soul To Squeeze
By the Red Hot Chili Peppers 
From the RedLiveHotRareChiliRemixPeppersBox 
Tabbed by Martin Peters


Bass

Moderatly slow


Intro:
G-|-/14----|-------14----14-16-14---|
D-|--------|-14-16----16------------|
A-|--------|------------------------|
E-|--------|------------------------|

G-|------------------------|------------------------|
D-|------------------------|------------------------|
A-|-0--0--0--0--0--0--0--0-|-0--0--0--0--0--0--0--0-|
E-|------------------------|------------------------|
Repeat two times


Verse:
G-|---------------------|---------------|-------------------|---------------|
D-|---------------------|-0--2--3-------|-----------3-------|---------------|
A-|----------3--3--2--3-|----------1----|-5--5--0-5----5--5-|-3-------------|
E-|-1-1--3-5------------|---------------|-------------------|------3--6--5\-|

G-|---------------------|------------3-3-3-|------------------|---------------|
D-|---------------------|-0--2--3----------|-----------3------|---------------|
A-|----------3--3--2--3-|----------1-------|-5--5--0-5---5--5-|-3-------------|
E-|-1-1--3-5------------|------------------|------------------|------3--6--5\-|


Verse variation: 
G-|---------------------|------------3-3-|-----------------|------------------|
D-|---------------------|-0--2--3--------|-----------3---3-|------------------|
A-|----------3--3--2--3-|----------1-----|-5--5--0-5---5---|-3--5-3-5---------|
E-|-1-1--3-5------------|----------------|-----------------|-----------3-/6\5-|



1st Chorus:
G-|---------|-------------|----------------------|----------|--------------------|
D-|-----7-8-|-10----7---5-|----------------------|-----7--9-|-10----7--7--8--7-5-|
A-|-8-------|---------8---|-5--5--5/7-8-----10-9-|-8--------|--------------------|
E-|---------|----8--------|-------------6--------|----------|----8---------------|

G-|--------------------------------|
D-|------------------------7-------|
A-|--5--5--5--5--5--5--5/8---------|
E-|---------------------------8\6--|



2nd Chorus:
G-|---------|---------------|--------------------------|----------|------------------|
D-|-----7-8-|-10----7---5---|--------------------------|------7-8-|-10---7-5-8---7-5-|
A-|-8-------|---------8---5-|-5--5--5/7-8--------------|-8--------|------------5-----|
E-|---------|----8----------|-------------6-5-3/5---6--|----------|----8-------------|

G-|-----------------------------------|
D-|------------------------7----------|
A-|--5--5--5--5--5--5--5/8------------|
E-|---------------------------6---5/3-|




Guitar solo:
G-|---------------------|------------3-3-|-------------------|---------------|
D-|---------------------|-0--2--3--------|------------3------|---------------|
A-|----------3--3--2--3-|----------1-----|-5--5--0--5---3--5-|-3-------------|
E-|-1-1--3-5------------|----------------|-------------------|------3--6--5\-|

G-|---------------------|------------3-3-3-|---------------|----------------------|
D-|---------------------|-0--2--3----------|----------3--3-|----------------------|
A-|----------3--3--2--3-|----------1-------|-5--5-0--5--3--|-3----3-3-3-3-3-3-3-3-|
E-|-1-1--3-5------------|------------------|---------------|----------------------|

G-|----------/12--|---------------------------|----------/12--|-----------------------|
D-|----12-10-/10--|-------10---------10-------|----12-10-/10--|------10-------10------|
A-|---------------|-10-12---12-10-12----12----|---------------|-10-12---10-12---12----|
E-|-10------------|-------------------------8-|-10------------|---------------------8-|

G-|----------/12--|---------------------------|----------/12--|-------------------------|
D-|----12-10-/10--|-------10---------10-------|----12-10-/10--|------10-------10--------|
A-|---------------|-10-12---12-10-12----12----|---------------|-10-12---10-12-----------|
E-|-10------------|-------------------------8-|-10------------|------------------8--6-5-|




Last Chorus:
G-|---------|----------------------|------------------------|
D-|-----7-8-|-10----7--7/8-7-5-5---|-----------7------------|
A-|-8-------|--------------------8-|-5--5--5/8----------5-7-|
E-|---------|----8-----------------|-------------6--8\5-----|

G-|----------------/12-10-|---------5----------|
D-|--------7-8-10---------|-5---3-5---7/8--7-5-|
A-|-8/9-10----------------|--------------------|
E-|-----------------------|--------------------|

G-|---------------------------|-----------------/12-10--|------------5-7------------|
D-|---------------------------|---------7-8-10----------|-10--7h8p7-5----8-7-5-3----|
A-|-5--5--5--5--5--5/8--------|-7/8-9-10----------------|-----------------------3-5-|
E-|---------------------6--3/-|-------------------------|---------------------------|

G-|---------------------------|------------------/12-10--|
D-|-------------7-10----------|--10-------7-8-10---------|
A-|-5--5--5-7/8---------------|-8--8-9-10----------------|
E-|-------------------3--6-5\-|--------------------------|

G-|---------5-7-5-3-5-3-2-|---------------------------|
D-|-10--8-7---------------|---------------------------|
A-|-----------------------|-5--5--5--5-7-8------------|
E-|-----------------------|-----------------6--5---1--|