GLOBAL GUITAR TABS

http://www.globaltabs.50megs.com

Author/Artist: RED HOT CHILI PEPPERS
 Title: SCAR TISSUE
 Album: CALIFORNICATION
 Originally Transcribed by: DAN REED (elfkin_1@yahoo.com
 Edit Transcription by: Ryan F. (rfrancisco@home.com)
 Date: July 1999

 The first two leads were transcribed by DAN REED. He got started on the
 final one but didn't finish so I gave it a shot.
 Enjoy.

 Solo:

 Lead 1 (0:59)
 e------------------------------------------------------------------------------------------|
 B-----13s10---10s8---8s10-10---10s12s13----------------------------------------------------|
 G------------------------------------------------------------------------------------------|
 D------------------------------------------------------------------------------------------|
 A------------------------------------------------------------------------------------------|
 E------------------------------------------------------------------------------------------|

 Lead 2 (1:59) Metal Slide
 e------------------------------------------------------------------------------------------|
 B-----13s15---15s13s10---10-10s8---13s10-----13s15---17s13s10---10s13s8---13s10---15s17s18-|
 G------------------------------------------------------------------------------------------|
 D------------------------------------------------------------------------------------------|
 A------------------------------------------------------------------------------------------|
 E------------------------------------------------------------------------------------------|

 Lead 3 (2:47)
 e-----17-17s15---17s12--12s13s10--8s10s8s10--10-8-5--5s8s3--5s8s5---------5-5-5-5----------|
 B------------------------------------------------------------------------------------------|
 G------------------------------------------------------------------7s9s7-----------7s9s7---|
 D------------------------------------------------------------------------------------------|
 A------------------------------------------------------------------------------------------|
 E------------------------------------------------------------------------------------------|

 e---------------------5--13-12-12--8-8s10s5----8s3s5~~~------------------------------------|
 B------------------------------------------------------------------------------------------|
 G-----7s9s5--5s7---------------------------------------------------------------------------|
 D----------------7-------------------------------------------------------------------------|
 A------------------------------------------------------------------------------------------|
 E------------------------------------------------------------------------------------------|