GLOBAL GUITAR TABS

http://www.globaltabs.50megs.com

#-----------------------------PLEASE NOTE-------------------------------------#
#This OLGA file is the author's own work and represents their interpretation  #
#of the song. You may only use this file for private study, scholarship, or   #
#research. Remember to view this file in Courier, or some other monospaced    #
#font. See http://www.olga.net/faq/ for more information.                     #
#-----------------------------------------------------------------------------#

Date: Mon, 1 May 2000 15:21:05 -0400
From: Louiejj1@aol.com
Subject: r/red_hot_chilli_peppers/other_side.tab

Author/Artist: Red Hot Chilli Peppers
Title: Other Side
Album: Californication -track 4
Transcribed by: Matt Silva
Email: Shapero12@aol.com

To get the Rythem of the song you have to listen to it.
Its not a hard song.  There are probaply alot of mistakes 
so if somthings wronge tell me about it.

r =  let ring out
p = pull off
/ = Slide


Beginining riff: 
-|-------------------------------------------------------------------------|--
-|-------------------------------------------------------------------------|--
-|-------------------------------------------------------------------------|--
-|-------------------------------------------------------------------------|--
-|-------------------------------------------------------------------------|--
-|13---13---13--18---18--20--18--16--13r-----11---11---11--13---13---13----|--
                                                             

-|-------------------------------------------------------------------------|--
-|-------------------------------------------------------------------------|--
-|-------------------------------------------------------------------------|--
-|-------------------------------------------------------------------------|--
-|-------------------------------------------------------------------------|--
-|-18---18--20--18--16--13---13-13-13r-----11---11---11--13---13---13--18--|--
                                                            How long          

-|-------------------------------------------------------------------------|--
-|-------------------------------------------------------------------------|--
-|-------------------------------------------------------------------------|--
-|-------------------------------------------------------------------------|--
-|-------------------------------------------------------------------------|--
-|-18--20--18--16--13---13-13-13r-----11---11---11--13---13---13---18---18-|--
                                           seperat my side~~~                 
 

-|-------------------------------------------------------------------------|--
-|-------------------------------------------------------------------------|--
-|-------------------------------------------------------------------------|--
-|-------------------------------------------------------------------------|--
-|-------------------------------------------------------------------------|--
-|-20--18--16--13---13-13-13r-----11---11---11---13---13---13---18---18----|--
             I Don't              I don't believe it's                        

-|------------------------------------|---------------------------------------
-|------------------------------------|----------------21---------------------
-|------------------------------------|--17---------17------------------------
-|------------------------------------|---------------------------------------
-|-----19--19--19--19--15--15--15--15-|---------------------------------------
-|18----------------------------------|---------------------------------------
                       my throat ever   ^The rest of the band comes in and    
 
                                         repeat this untill the chorus. At the 
                                         chorus you play the begining riff.


Solo: W/Distortion and hit hard 
-|-----------------------------------------------------------------|
-|-----------------------------------------------------------------|
-|-----------------------------------------------------------------|
-|-----------------------------------------------------------------|
-|-----------------15---15---15----19p-15---15----14/15---15---15--|
-|-18---18---18----------------------------------------------------|
                                   ^repeat    

-|------------------------------------------------------------------|
-|--------------------------------19--------------19----19----19----|
-|-/15---15--15--15-/21--21-21-21----21-21--21-21----21----21----21-|
-|------------------------------------------------------------------|
-|------------------------------------------------------------------|
-|------------------------------------------------------------------|
                                                                   ^end solo  

-|----------------------------------------------------------------------|-----
-|----------------------------------------------------------------------|-----
-|-21-21-21-21-21-21-21-21-21-21-21-21-21-21-21-21-21-21-21-21----------|-----
-|----------------------------------------------------------------------|-----
-|----------------------------------------------------------------------|-----
-|-------------------------------------------------------------------18-|-----
  for the rest of the song do this till the very last note which is   ^