GLOBAL GUITAR TABS

http://www.globaltabs.50megs.com

#----------------------------------PLEASE NOTE---------------------------------#
#This file is the author's own work and represents their interpretation of the #
#song. You may only use this file for private study, scholarship, or research. #
#------------------------------------------------------------------------------##
From: PePPeRs01@aol.com
Date: Sun, 9 Jul 1995 19:49:11 -0400
Subject: Give it away btab by the red hot chili peppers

Give it Away by the Red Hot Chili PePPeRs

this is a great song

g-------------12------------------------------------
d------9\14----------------------------------------
a-0-0--------------0-3-0-3-----------------------
e-----------------------------------------------------

Guitar solo
g-------------------------------------------------
d-------------------------------------------------
a-----------10----------------------------------
e-0-0\12------0-3-0-3------------------------

as easy as pie
PePPeRs@aol.com