GLOBAL GUITAR TABS

http://www.globaltabs.50megs.com


RED HOT CHILI PEPPERS
DOSED
FROM THE ALBUM 'BY THE WAY'

TABBED BY STEPHEN CONSTANTINE (STEVECONST@HOTMAIL.COM)
	  RUNAR MAELAND (runar_go@down.tc)

THIS TAB IS ALL MY OWN WORK


THERE SEEMS TO BE FOUR GUITARS OCCASIONALLY PLAYING AT THE SAME TIME IN THIS SONG.
KEYBOARD + GUITAR PLAY THROUGHOUT THE CHORUS.

I HOPE THE TAB IS NOT TOO HARD TO UNDERSTAND. HOWEVER, IT IS COMPLETE.

INTRO:

GUITAR ONE:
E------12-
B----12---
G--12-----
D---------
A---------
E---------



GUITAR TWO (GUITAR THREE IS PLAYED AT THE SAME TIME AS THESE RIFFS):
E--------------
B--------------
G--9------7----
D-----9-9---9--
A--------------
E--------------

E-------------
B-------------
G------7-9----
D--9-9-----9--
A-------------
E-------------

GUITAR THREE:

E---------------
B---------------
G---------------
D--5-4----------
A------7-5-7-7--
E---------------


'...DOSED BY YOU'
E--10---------
B-------------
G-----11-12---
D-------------
A-------------
E-------------

'...NEVER HAD IT ANYWAY'
E--19-17-15-14-15--
B------------------
G------------------
D------------------
A------------------
E------------------

'...EVERYTHING'LL BE OK'
E--15-14-12-10-12--
B------------------
G------------------
D------------------
A------------------
E------------------



CHORUS:

G D Em C


GUITAR FOUR REPEATEDLY PLAYS ON THE 19TH FRET ON THE HIGH E STRING JUST BEFORE THE THIRD CHORUS.





SOLO (IN THE LAST SECTION OF THE CHORUS, C G A) :

E--12-10-12-10-12-10-12-10-12-10-------------10-12-10-12-10-12-10---
B--------------------------------12-12-12-12------------------------
G-------------------------------------------------------------------
D-------------------------------------------------------------------
A-------------------------------------------------------------------
E-------------------------------------------------------------------

E--12-10-12-10------------------------------------------------------
B--------------12-12-12-12--13-13-13-13-13-13-12--------------------
G------------------------------------------------12-12-12-11-12-12--
D-------------------------------------------------------------------
A-------------------------------------------------------------------
E-------------------------------------------------------------------

E------------------------------12-10-12-10-12-10-12-10-12-10--------
B--12-13-12-13-12-13-12--------------------------------------12-12--
G-----------------------12-12---------------------------------------
D-------------------------------------------------------------------
A-------------------------------------------------------------------
E-------------------------------------------------------------------


E--------12-10-12-10-12-10-12-10-12-10--------------10-10-10-10-10--
B--12-12-------------------------------12-12-12-12------------------
G-------------------------------------------------------------------
D-------------------------------------------------------------------
A-------------------------------------------------------------------
E-------------------------------------------------------------------

E--10----------------------------------------------------10---------
B-----12b13-13-13-13-r12--12-12-12-12-12-12-12-12b13-r12------------
G-------------------------------------------------------------------
D-------------------------------------------------------------------
A-------------------------------------------------------------------
E-------------------------------------------------------------------


ENJOY!