GLOBAL GUITAR TABS

http://www.globaltabs.50megs.com


From: "colin boylan" 
Subject: r/red_hot_chili_peppers/dont_forget_me.tab
Date: Wed, 03 Jul 2002 16:48:07 +0100

Artist: Red Hot Chili Peppers
Song: D'ont Forget Me
Album: By The Way
Tabbed by: Colin Boylan (HairyJapeneseGoldfish)
Date: 3/7/02
Email: colin_boylan@hotmail.com

Key>>>
p = pull off
h = hammer on
b = bend
              <<>>>>
This is a cool little song but sounds very like otherside
so the chords were pretty obvious. heard this on their
website today.

MAIN RIFF : whole way through i think
    A          F          C          G
e|--------------------------------------------------
b|--------------------------------------------------
g|------------------------5-x-x-x-x-----------------
d|--7-x-x-x-x--3-x-x-x-x--5-x-x-x-x--5-x-x-x-x------
a|--7-x-x-x-x--3-x-x-x-x--3-x-x-x-x--5-x-x-x-x------
E|--5-x-x-x-x--1-x-x-x-x-------------3-x-x-x-x-----

THIS COMES IN : semi palm mute
e|--------------------------------------------------
b|--------------------------------------------------
g|--9-9-9-9-9-9-9-9-9-9--- etc ---------------------
d|--------------------------------------------------
a|--------------------------------------------------
E|--------------------------------------------------

THEN THIS : Try and strum it like john does really fast
          . delay possibly here i think    X2
e|-------------------------------------------etc----
b|--10-h-13-10-10-h-13--10-10-h-13------------------
g|--9-------9--9--------9---9----------------------
d|--------------------------------------------------
a|--------------------------------------------------
E|--------------------------------------------------

e|--8-p-5----8-p-5----8-p-5----8-p-5---------------
b|--------5---------5--------5---------5-----etc---
g|--------------------------------------------------
d|--------------------------------------------------
a|--------------------------------------------------
E|--------------------------------------------------

CHORUS :
e|--------------------------------------------------
b|--------------------------------------------------
g|---------------5-5--------------------------------
d|--7-7---3-3----5-5------5--5----------------------
a|--7-7---3-3----3-3------5--5----------------------
E|--5-5---1-1-------------3--3----------------------

FILL OVER CHORUS :
e|--17--17--17--17--17--17-17--17----ETC------------
b|--------------------------------------------------
g|--------------------------------------------------
d|--------------------------------------------------
a|--------------------------------------------------
E|--------------------------------------------------

WIERD SOLO BIT : w/ some delay  effect
e|--12-12-12---3-3-3-3-3------5-5-5-5-5-5-----------
b|--------------------------------------------------
g|--------------------------------------------------
d|--------------------------------------------------
a|--------------------------------------------------
E|--------------------------------------------------

e|--12-12-12---15-15---12-12-12----3-3-3-3---5-5-5-5-
b|--------------------------------------------------
g|--------------------------------------------------
d|--------------------------------------------------
a|--------------------------------------------------
E|--------------------------------------------------


e|--5b-3------5---3---------------------------------
b|---------5---------5------------------------------
g|--------------------------------------------------
d|--------------------------------------------------
a|--------------------------------------------------
E|--------------------------------------------------

OUTRO :
e|-----5--3-----5---3-------------------------------
b|--5--------5---------5--5-------------------------
g|--------------------------------------------------
d|--------------------------------------------------
a|--------------------------------------------------
E|--------------------------------------------------

Back into verse chords Thats it.