GLOBAL GUITAR TABS

http://www.globaltabs.50megs.com


RED HOT CHILI PEPPERS
CAN'T STOP
FROM THE ALBUM 'BY THE WAY'


TABBED BY STEPHEN CONSTANTINE (STEVECONST@HOTMAIL.COM)
PLEASE E-MAIL ME WITH COMMENTS + SUGGESTIONS!

THIS TAB IS ALL MY OWN WORK



INTRO:

x8
E---------------------------
B---------------------------
G--7-9--7-9--7-9--7-9--7-9--
D---------------------------
A---------------------------
E---------------------------

INTRO + VERSE:

LOOPED THROUGHOUT VERSE.
E------------------------------------------------------------------
B------------------------------------------------------------------
G------7-9-------7-9----------7-9-------7-9---------7-9-------7-9--
D------------------------------------------------------------------
A--7-7-----7-7-7------7-7-7-5-----5-5-5-----5-5-5------------------
E-------------------------------------------------7-----7-7-7------


E---------------------------------
B---------------------------------
G----------7-9-------7-9----------
D---------------------------------
A------------------------------7--
E--7-7-7-8-----8-8-8-----8-8-8----


CHORUS:

Em D Bm Cmaj7


BRIDGE:

Em D Bm C


SOLO AT BEGINNING OF LAST VERSE:

E---------------------------------------------
B---------------------------------------------
G---------------------------------------------
D---------------------------------------------
A---------------------------------------------
E---------------------------------------------


E---------------------------------------------
B---------------------------------------------
G---------------------------------------------
D---------------------------------------------
A---------------------------------------------
E---------------------------------------------

ACAPELLA END.

ENJOY!