GLOBAL GUITAR TABS

http://www.globaltabs.50megs.com


#----------------------------------PLEASE NOTE---------------------------------#
#This file is the author's own work and represents their interpretation of the #
#song. You may only use this file for private study, scholarship, or research. #
#------------------------------------------------------------------------------##
Song Title: Aeroplane
Album: One Hot Minute
Artist: Red Hot Chili Peppers
Tabbed by: Martin Peters
----------------------------------------------


Moderately funk


Intro:
G-|-----17/19\17-|-------------------|--------17---19--17---17-|-----17-----------|
D-|--------------|--15h17-15---------|-15h17-----17--17--17----|-15---------------|
A-|-/15----------|-----------17-15---|-------------------------|--------15h17p15--|
E-|--------------|-------------------|-------------------------|------------------|


Chorus:
G-|------------|------------|-------------|--------------|
D-|------------|------------|-------------|--------------|
A-|------------|------------|-------------|--------------|
E-|-15\---5-6--|-8---0h1/10-|-15---5-6h7--|-8--3-4-5-5\--|


G-|------------|---------------|-----------|--------------|
D-|------------|---------------|-----------|--------------|
A-|------------|---------------|-----------|--------------|
E-|-15\---5-6--|-8---3/15\5/17-|-15---5-6--|-8--x3-5h7----|


G-|------------|------------|-------------|---------------------------|
D-|------------|------------|-------------|-----10-------13-13-12--10-|
A-|------------|------------|-------------|---10--10-10---------------|
E-|-15\---5-6--|-8---0h1/10-|-15---5-6h7--|-8-------------------------|
Play the chorus parts with variations. Exsamples are showed above.
Note that Flea plays these parts with a lot of slides and shake notes.


Verse figure:   
G-|---------------7--7--|-----5--5---------------|-------------7--7----|
D-|-----5--5------------|---------------3---3--5-|-------5-x-----------|
A-|------------x5--5--4-|-3-x--3---5-6x----------|-----------5--5--x-4-|
E-|-3x-3--3--5----------|-----------------3--3---|-x-3-3--x------------|
    TT TP TP T TT PT TT   T T PT P T TT P T PT P   T T T PTP T PT PT T


G-|---5--5------------------|------------7--7----|
D-|----------------7--5-----|------5-x-----------|
A-|-3--3---5x-5h7-----------|----------5--5--x-4-|
E-|---------------5--3--5p3-|-x3-3--3------------|
    T PT sim...


G-|-----5--5----8--7--|-------------7--x-7---|-----5--x------------|
D-|-------------------|---5--5---------------|--------------7------|
A-|-3-3--3--5h6--5----|--------5h6p5--5-5-4--|-3-3--3--3-----------|
E-|-------------------|-3--3-----------------|-----------3h5-5h7\--|
Improvise on the verse parts throughout the song.


Interlude:
G-|---------------------|--------------12-12p10-----------12--|
D-|---------------------|------------------------12p10h12-----|
A-|--------8-8---10-10--|-------8-8-10------------------------|
E-|-11-11---------------|-11-11-------------------------------|


G-|---------------------|-----------12p10-10-------------12--|
D-|---------------------|--------------------12-12p10h12-----|
A-|--------8-8---10-10--|-------8-8--------------------------|
E-|-11-11---------------|-11-11------------------------------|


Bass solo:
G-|-------x-3-4----------|-------------------------|------------------------|
D-|-----5-------3-3--5-3-|-------------------------|------------------------|
A-|-----------------5----|-3--x-1-1-3-1------------|------------------------|
E-|-3--------------------|--------------3--1-1-1-2-|-3--3-3-3-1--1---3/15\3-|


G-|---------------------------|----------3----|-----------------------|
D-|---------------------------|----5--3-------|-----------------------|
A-|-3--3-3-3-1-1-----x3-x4-x5-|-------------4-|-3--1---3-1------------|
E-|---------------------------|-3-------------|-----------3--1-1-1--2-|


G-|-----------3-4------------|---5----------|
D-|-------5-5------5-3-------|--------------|
A-|-----5-----------5--x-4---|-3------------|
E-|-3----------------------x-|-------3/19\3-|



Play the bass solo tight and rhythmic. Flea uses a lot of staccato notes
(short notes) to define the fingerstyle funk. 

Improvise the outro in minor scales, and make sure to hold the periods.



From: Murzik01@aol.com
Date: Thu, 4 Jan 1996 12:37:03 -0500
Subject: BTAB: Aeroplane by the Red HOt Chili PePPeRs

Aeroplane by the 
Red hot chili PePPeRs
>From murzik01@aol.com
formerly:
PePPeRs 00@aol.com
PePPeRs o0@aol.com
PePPeRso0o@aol.com
PePPeRs 01@aol.com
Staff1209@aol.com
I've posted many Pearl Jam and Chili PePPeRs bass tabs.
Enough crap now heres the tab.
 
                                       Aeroplane
Intro
  Gm               Cm                             Gm
g-----------------|---------------------------------|--------=----------|
d-----------------|---------------------------------|--------=----------|
a-----------------|-------------------------=------|--------------------|
e-15\\\\-5--6--|----8------0------1////10----|--15\\\\\-5--6---|
  Cm
g----------------------------------------------|
d--------------10-----13-13-12-----10---|
a---------10------10-------------------------|
e--8-------------------------------------------|

verse-SLAP EVERYTHING ON E AND A STRINGS
AND PLUCK THE D AND G STRINGS
**  Gm           Gm/Bb        Cm           Cm/Eb
g--------------------7-----7-----|---------5----5----------------------
d--------5-----------------------|-------------------------3----3----5-
a-----------------------------4--|-3--3-----3----5-6-6--------------
e-3--3-----5-(6)--(6)---------|---------------------------3-----3---

Repeat ** part then play this
g----------5----5---------------5----5----5---
d---------------------------5---------------------
a---3--3----3----5h6-6---6----6----6-------
e-------------------------------------------------

Ending
g--------------3-------------------------------------------
d----5----3----------------------------------------------
a------------------4----3--1---3-1---------------------
e-3--------------------------------------3-1-1-1-2----

g--------------3-4--------------------|----5------------------
d--------5-5-------5----3------------|-----------------------
a-----5----------------5-------4-----|--3--------------------
e--3------------------------3------3-|--------3\19/3-------
THats it