GLOBAL GUITAR TABS

http://www.globaltabs.50megs.com

                          Red Hot Chili Peppers
                               We Believe

Tabbed by:Alex Adams
E-Mail:alex7adams@yahoo.co.uk

Tuning:ebgdae

Intro/verse

e|7-5-5--7-5-5-7--7-5-5--7-5-5-7--|
b|--------------------------------|   Repeat as needed
g|--------------------------------|
d|--------------------------------|
a|--------------------------------|
e|--------------------------------|


Chorus

e|14-12-12--14-12-12-14--14-12-12--14-12-12-14----|
b|------------------------------------------------|  The chorus has the same 
g|------------------------------------------------|  rythym as the verse.
d|------------------------------------------------|  Repeat as needed.
a|------------------------------------------------|
e|------------------------------------------------|


Solo
I have not tabbed the solo it is in e minor pentotonic
i will tab it out soon but you could try to do it
or make your own solo.

E minor pentotonic

e|------------------------------12-15----|
b|------------------------12-15----------|
g|------------------12-14----------------|
d|------------12-14----------------------|
a|------12-14----------------------------|
e|12-15----------------------------------|


Outro is same as the verse just fade out as the