GLOBAL GUITAR TABS

http://www.globaltabs.50megs.com

Song:Warlocks
Band: Red Hot Chili Peppers

Intro/Verse
E----------------------------|
B----------------------------|
G----------------------------|
D--12-14-----12-14-14--------|
A----------------------------|
E----------------------------|

Chorus (Strumming Pattern Not Shown)
Every night I go lookin' for you
E-12-------------------------|
B-12-------------------------|
G-12-------------------------|
D----------------------------|
A----------------------------|
E----------------------------|

Everyone in the world adores you
E-8--------------------------|
B-8--------------------------|
G-8--------------------------|
D----------------------------|
A----------------------------|
E----------------------------|

A little pocket of something kind
E-5--------------------------|
B-5--------------------------|
G-5--------------------------|
D----------------------------|
A----------------------------|
E----------------------------|
To find your reason
(Rest This measure)

Bridge (Strumming pattern not shown)
E-8-----------------7--------|
B-8-----------------7--------|
G-8-----------------7--------|
D----------------------------|
A----------------------------|
E----------------------------|

Solo (distortion)
E--17-17-17-17-17-17-----19b----19b-------------------------------|
B------------------------------------12hp13--12hp13--10-----------|
G--------------------------------------------------------11hp12--9|
D-----------------------------------------------------------------|
A-----------------------------------------------------------------|
E-----------------------------------------------------------------|

E---------------------------------------------------------------------------|
B---------------------------------------------------------------------------|
G---------------------------------------------------------------------------|
D--10hp11--8----------------------------------------------------------------|
A-------------9hp10--7-----------------------------7--9h10------------------|
E-----------------------8hp9--6--8hp9--6--6--8--9---------------------------|

E---------------------------------------------------------------------------|
B----------------------10--12b--13b-----------------------------------------|
G-------------9--11h12------------------------------------------------------|
D--8--10h11-----------------------------------------------------------------|
A---------------------------------------------------------------------------|
E---------------------------------------------------------------------------|

Intro/Verse x6
Chorus x2
Intro/Verse x4
Chorus x2
Intro/Verse x2
Bridge x2
Solo x1
Intro/Verse x2
Chorus x4