GLOBAL GUITAR TABS

http://www.globaltabs.50megs.com

Standard Tuning
eBGDAE

Bass Intro then: fast chord strumming

         A#                                 D#m
0:15                                         0:19
|----6--6-6-6--.......------6--6-6-6.........------------------|
|----6--6-6-6--.......------7--7-7-7.........------------------|
|----7--7-7-7--.......------8--8-8-8..........|        Repeat--| 5X
|----8--8-8-8--.......------8--8-8-8.........------------------|
|----8--8-8-8--.......------6--6-6-6.........------------------|
|----6--6-6-6--.......----- (6)- 6-6-6.........----------------|

on the 5th time under the D#m chord there is a background guitar doing this:

|------------|                |------------------|
|----9-------|                |------------------|
|--- 12^(13)--|      OR     |----13--------------|
|------------|                |----17^(18)-------|
|------------|                |------------------|
|------------|                |------------------|


|-------------------------------------------------------------|
|-------------------------------------------------------------|
|----------10------------------------8^(10)v8------6----------|   continue on
|---8---8------11----8--11-------8-------------8-----8--------|   next line
|---------------------------9---------------------------------|
|-------------------------------------------------------------|
                                                                                         
      A#............D#m
|--------------------------------------------------- 8.........----6--|
|--------------------------------------------------- 8.........----7--|
|----------10--------------------------------------- 7.........----8--|
|---8---8------11----8--11-------8~----------------  8.........----8--|
|---------------------------9----------------------- 8..........----6-|
|--------------------------------------11^~~- 106-- 6..........-------|(6)


slow part with distortion
1:58
          C#           D#m              C#           D#m         C#         D#m          
              D#m
|--------------6-----------------6-----------------6--------44444444- 66666666----|
|-----6--------7--------6--------7--------6--------7--------6---------7-----------|
|-----6--------8--------6--------8--------6--------8--------6---------8-----------|
|-----6--------8--------6--------8--------6--------8--------6---------8-----------|
|-----4--------6--------4--------6--------4--------6--------4---------6-----------|
|---------------------------------------------------------------------------------|

         C#                D#m
|-----44444444- 6-----|
|-----6---------7-----|
|-----6---------8-----|
|-----6---------8-----|
|-----4---------6-----|
|---------------------|

E|-----------------------------------------------------------------|
B|-----------------------------------------------------------------|
G|------------------------------------13-b15-15----13--b15-15------|
D|--6-6p8-8888---11-11p15-15-15-15-15-----------15-----------------|
A|-----------------------------------------------------------------|
E|-----------------------------------------------------------------|

E|-----------------------------------------------------------------|
B|-----------------------------------------------------------------|
G|--15-13----15-13----15-13----15-13----15-13----------------------|
D|--------15-------15-------15-------15-------15-------------------|
A|-----------------------------------------------------------------|
E|-----------------------------------------------------------------|

E|--------------------------------------------------16-------------|
B|------------------b16-b16-b16--14-16-14----14-b16----14-16-14----|
G|-----------13-b15-----------------------15---------------------15|
D|--13p15-15-------------------------------------------------------|
A|-----------------------------------------------------------------|
E|-----------------------------------------------------------------|

E|--------------16-------------------------------------------------|
B|--14-b16---------14-16-14----14----16--16-16-16-14-11--11b14-16--|
G|--------------------------15-------------------------------------|
D|-----------------------------------------------------------------|
A|-----------------------------------------------------------------|
E|-----------------------------------------------------------------|

E|-----------------------------------------------------------------|
B|--16-16-16-14-11---16-16-16-14-11---16-16-16-14-11---b11---9b11--|
G|-----------------------------------------------------------------|
D|-----------------------------------------------------------------|
A|-----------------------------------------------------------------|
E|-----------------------------------------------------------------|

E|-----------------------------------------------------------------|
B|--11-b11--9b11-b11-9b11-b11-9b11-b11-9---------------------------|
G|---------------------------------------15-13-10-15-13-10-15-13-10|
D|-----------------------------------------------------------------|
A|-----------------------------------------------------------------|
E|-----------------------------------------------------------------|

E|-----------------------------------------------------------------|
B|-----------------------------------------------------------------|
G|--15-13-10-15-13-10-15-13-10-15-13-10-15-13-10-15-13-10-15-13-10-|
D|-----------------------------------------------------------------|
A|-----------------------------------------------------------------|
E|-----------------------------------------------------------------|

E|---------------------18-b18----------------b18-18----------------|
B|------16-16-16-18-21--------16-16-16-18-21-----------------------|
G|-----------------------------------------------------------------|
D|-----------------------------------------------------------------|
A|-----------------------------------------------------------------|
E|-----------------------------------------------------------------|