GLOBAL GUITAR TABS

http://www.globaltabs.50megs.com

Stadium Arcadium
(revised)


Red Hot Chili Peppers
Stadium Arcadium
Tabber: Aaron Yeo
Dated: May 3rd, 2006 (don't you just love torrents?)

Intro/Verse:

e|--------------------------------|--------------------------------|
B|--------------------------------|-------2-------2----------------|
G|-------2-------2----------------|-----2-------2------------------|
D|-----4-------4------------------|---2-------2--------------------|
A|---4-------4--------------------|-0------------------------------|
E|-2------------------------------|--------------------------------|

e|--------------------------------|-0---------------0--------------|
B|--------------------------------|-2---------------0--------------|
G|-------2-------2----------------|-2---------------1--------------|
D|-----4-------4------------------|-2---------------2--------------|
A|---4-------4--------------------|-0---------------2--------------|
E|-2------------------------------|-----------------0--------------|

Chorus:

e|---|---|---|---|
B|---|-3-|-2-|---|
G|-4-|-2-|-2-|-1-|
D|-4-|-0-|-2-|-2-|
A|-2-|-0-|-0-|-2-|
E|-2-|---|---|-0-|

2nd Verse (with verse guitar riff):

Here either use a second guitar, or just play it on the same one. The studio

version has two guitars 'cause they're different effects.

e|-2--------------------------0---|--------------------------------|
B|--------------------------------|-2------------------------------|
G|--------------------------------|--------------------------------|
D|--------------------------------|--------------------------------|
A|--------------------------------|--------------------------------|
E|--------------------------------|--------------------------------|

e|--------------------------------|--------------------------------|----|
B|-2--------------------------0---|--------------------------------|----|
G|--------------------------------|-2---------------1--------------|----|
D|--------------------------------|--------------------------------|-4--|
A|--------------------------------|--------------------------------|----|
E|--------------------------------|--------------------------------|----|

|----4 measures of just the verse riff----|

(light distortion)

e|------------------------|----------------------------------|
B|------------------------|----------------------------------|
G|-5/6---4------5/6---4-|------------------------------------|
D|------------------------|-----------------------5/6-5------|
A|------------------------|----------------------------------|
E|------------------------|----------------------------------|

e|------------------------|-----------------------------|
B|-6/7---5------6/7---5-|----6/7---5---/9-----9---------|
G|------------------------|------------------9-----9----|
D|------------------------|-----------------------------|
A|------------------------|-----------------------------|
E|------------------------|-----------------------------|

Chorus Again

Solo

e|--------------------------------|----------------------------------|
B|--------------------------------|----------------------------------|
G|-------------------11-9---119--|--------------------9--------------|
D|------------------------9-------|---------------9/11---11-9-9/11---|
A|--------------------------------|----------------------------------|
E|--------------------------------|----------------------------------|

e|--------------------------------|----------------------------------|
B|---------------------9----------|----------------------------------|
G|------------------11------------|-------------------9-11-----------|
D|-------------9/11------11p9-97-|----------4-----11------11--9------|
A|--------------------------------|----------------------------------|
E|--------------------------------|----------------------------------|

e|--------------------------------|--------------------------------|
B|----------------10-9----9/10----|------11/12--------10-9-9/10----|
G|-------------11------11------11-|-----------------------------11-|
D|--------------------------------|--------------------------------|
A|--------------------------------|--------------------------------|
E|--------------------------------|--------------------------------|

e|--------------------------------|----------------------------------|
B|--------------------------------|----------------------------------|
G|-------------------11--9-10/11-|--------------------9--------------|
D|--------------------------------|------------7/-9-11---119-9/11----|
A|--------------------------------|----------------------------------|
E|--------------------------------|----------------------------------|

e|---------------11---------------|---------9------------------------|
B|------------14----12------------|-----------12---12----------------|
G|---------------------11---------|-------------------11/-129-/11----|
D|---------11-------------109/11-|-----------------------------------|
A|--------------------------------|----------------------------------|
E|--------------------------------|----------------------------------|

Verse Riff Again

Then again with a slight difference:

e|--------------------------------|--------------------------------|
B|--------------------------------|-------2-------2--------2h3-2---|
G|-------2-------2----------------|-----2-------2----------------2-|
D|-----4-------4------------------|---2-------2--------------------|
A|---4-------4--------------------|-0------------------------------|
E|-2------------------------------|--------------------------------|

e|--------------------------------|-0---------------0--------------|
B|--------------------------------|-2---------------0--------------|
G|-------2-------2----------------|-2---------------1--------------|
D|-----4-------4------------------|-2---------------2--------------|
A|---4-------4--------------------|-0---------------2--------------|
E|-2------------------------------|-----------------0--------------|

Chorus...

And that's it. Nothing to complicated, powerchords and a few open chords, and the solo 
are just the same notes over in different patterns.