GLOBAL GUITAR TABS

http://www.globaltabs.50megs.com

Shes Only 18 Tab by Red Hot Chili Peppers, www.Ultimate-Guitar.Com

Verse

Riff A

e --------------------/------------------|
B --------------------/------------------|
G ------3h5p3----3----/-------3h5p3---3--|
D ---3h5------h5---5--/---3h5-------h5---|
A --------------------/------------------|
E --------------------/------------------|

Riff B

e -------6h8p6----6---/------6h8p6----6-|
B ---6h8-------h8---8-/--6h8-------h8---|
G --------------------/-----------------|
D --------------------/-----------------|
A --------------------/-----------------|
E --------------------/-----------------|


Verse structure:

Riff A  x8
Riff B  x4
Riff A  x2

Chorus:

   C min   D# maj      G min     F maj

e --3--------------/----3-----------1--------|
B --4---------8----/----3-----------1--------|
G --5---------8----/----3-----------2--------|
D --5---------8----/----5-----------3--------|
A --3---------6----/----5-----------3--------|
E -----------------/----3-----------1--------|


e --------/-----------------------------------
B ---11---/--13-------------------------------
G ---12---/--14-------------------------------
D --------/-----------------------------------
A --------/-----------------------------------
E --------/-----------------------------------

Tabbed by rhcpdoyle
ishootpidgeons@hotmail.co.uk