GLOBAL GUITAR TABS

http://www.globaltabs.50megs.com

------------------------------------------------------------------------------
	            It Looks to Me - Red Hot Chili Peppers
------------------------------------------------------------------------------

| /  slide up
|   slide down
| h  hammer-on
| p  pull-off
| x  Mute note

Intro: Repeat once end on B|-12~
                          G|-13~

e|---------------------------------------------------------|
B|-10----10----14----14----12----12----19----19------------|
G|----11----11----14----14----13----13----18----18---------|
D|---------------------------------------------------------|
A|---------------------------------------------------------|
E|---------------------------------------------------------|

Verse:
     A       C       G       F
e|---------------------------------------------------------|
B|--2-2-x-x-5-5-x-x----------------------------------------|
G|--2-2-x-x-5-5-x-x-4-4-----2-2----------------------------|
D|--2-2-x-x-5-5-x-x-5-5-x-x-3-3----------------------------|
A|--0-0-x-x-3-3-x-x-5-5-x-x-3-3----------------------------|
E|------------------3-3-x-x-1-1----------------------------|
   Looks to me like heavens in no lulluby....

here and there before chorus:

e|---------------------------------------------------------------|
B|--18~--18~--14-------------------------------------------------|
G|----------------16--16-p-14------------------------------------|
D|---------------------------------------------------------------|
A|---------------------------------------------------------------|
E|---------------------------------------------------------------|

Chorus:

e|---------------------------------------------------------|
B|-10-10-x-10---14-14-x-14--12-12-x-12--19-19-19-19--------|
G|-11-11-x-11---14-14-x-14--13-13-x-13--18-18-18-18--------|
D|-11-11-x-11---14-14-x-14--14-14-x-14--18-18-18-18--------|
A|---------------------------------------------------------|
E|---------------------------------------------------------|


Interlude:

 A            C
Down in the sassy
 F
give me your mouth please
 F
resistation is the way I found thee

Solo:
e|---------------------------------------------------------|
B|-------------/17~---22~----------------------------------|
G|--/9~--/14~----------------------------------------------|
D|---------------------------------------------------------|
A|---------------------------------------------------------|
E|---------------------------------------------------------|

Interlude:

It looked to me like heavens empty for....

Tabbed by Paul Ardizzone
Emitremus3@hotmail.com