GLOBAL GUITAR TABS

http://www.globaltabs.50megs.com

If Tab by Red Hot Chili Peppers
Tabbed By: Jen
Email: jen2805@hotmail.com
Band: The Red Hot Chili Peppers
Album: Stadium Arcadium
Song: If

Please feel free to leave any comments or corrections

Intro/Verse:

And if i had a clue i`d know exactly what to do.

If I Was the wiser of the two.

And if i saw it all so clear i`d write it down and bend your ear, if i were the clearer of the two.


e|-----------------------------------------------------------------|
B|--141210--7-9-9/10-----------------------------------------------|
G|-----------------------------------------------------------------|
D|-----------------------------------------------------------------|
A|-----------------------------------------------------------------|
E|-----------------------------------------------------------------|

We could take a walk into the canyons of 5th avenue, sing and dance just to name a few.

e|-----------------------------------------------------------------|
B|--/9-10----------------------------------------------------------|
G|-----------------------------------------------------------------|
D|-----------------------------------------------------------------|
A|-----------------------------------------------------------------|
E|-----------------------------------------------------------------|

All i`d do
All i`d do

e|-----------------------------------------------------------------|
B|--/15-12-12/1312-10---/17-15-12-12/1312-10-----------------------|
G|-----------------------------------------------------------------|
D|-----------------------------------------------------------------|
A|-----------------------------------------------------------------|
E|-----------------------------------------------------------------|

And if i herd the angels sing i`d sing it back to you and bring the sound of heaven 
just for you.

e|-----------------------------------------------------------------|
B|--141210--7-9-9/10/12/10-----------------------------------------|
G|-----------------------------------------------------------------|
D|-----------------------------------------------------------------|
A|-----------------------------------------------------------------|
E|-----------------------------------------------------------------|

And if i saw the sun fall down i`d pick it up and make a crown, one that was a perfect fit for you.

e|-----------------------------------------------------------------|
B|--/17--15-14-1514-10-11/12-10------------------------------------|
G|-----------------------------------------------------------------|
D|-----------------------------------------------------------------|
A|-----------------------------------------------------------------|
E|-----------------------------------------------------------------|

We could take a walk in to the apple orchard by the school, we could make a little residue.

e|---5/7-9------5/7--5-------------------------------------------|
B|---------------------------------------------------------------|
G|---------------------------------------------------------------|
D|---------------------------------------------------------------|
A|---------------------------------------------------------------|
E|---------------------------------------------------------------|


We could find a place to stay a seceret little hide away , spend a little time inside of you


e|---5/7-9----5/7--5---------------------------------------------|
B|---------------------------------------------------------------|
G|---------------------------------------------------------------|
D|---------------------------------------------------------------|
A|---------------------------------------------------------------|
E|---------------------------------------------------------------|

All i`d do
All i`d do
All eyes
All eyes
All eyes on you.

e|-----------------------------------------------------------------|
B|--/13-12-12/1312-10-----/17-15-12-12/1312-10---------------------|
G|-----------------------------------------------------------------|
D|-----------------------------------------------------------------|
A|-----------------------------------------------------------------|
E|-----------------------------------------------------------------|

All eyes
All eyes
All eyes on you.
All i`d do
All i`d do
All i`d do
All i`d do

e|---------------------------------------------------------------|
B|-/13--12--10-9--/13--12--10--/10/13----13/15-10----------------|
G|---------------------------------------------------------------|
D|---------------------------------------------------------------|
A|---------------------------------------------------------------|
E|---------------------------------------------------------------|