GLOBAL GUITAR TABS

http://www.globaltabs.50megs.com



Arctic Monkeys - Still Take You Home

Riff 1:
e------------|
B------------|
G------------|
D------------|
A-1-1-1--5-4-|
E------------|

Riff 2:
e---------------------------------|
B---------------------------------|
G-3-3-3-3-3-3-3-3--8-8-8-8--11-10-|
D-3-3-3-3-3-3-3-3--8-8-8-8--11-10-|
A-1-1-1-1-1-1-1-1--6-6-6-6---9--8-|
E---------------------------------|

Intro:
Riff 1 x12
Riff 2 x4

Verse:
Riff 2 x4

Chorus:
e---------------------------------------------------------|
B---------------------------------------------------------|
G-8--8--8--8--6--6--6--6--3-3-3-3-3-3-3-3-3-3-3-3-3-3-3-3-|
D-8--8--8--8--6--6--6--6--3-3-3-3-3-3-3-3-3-3-3-3-3-3-3-3-|
A-6--6--6--6--4--4--4--4--1-1-1-1-1-1-1-1-1-1-1-1-1-1-1-1-|
E---------------------------------------------------------|

e---------------------------|
B---------------------------|
G-8--8--8--8--6--6--6--6--3-|
D-8--8--8--8--6--6--6--6--3-|
A-6--6--6--6--4--4--4--4--1-|
E---------------------------|

Bridge
e-----------------------------|
B-----------------------------|
G-----3-3-1-1-----------------|
D-------------3---------------|
A-1-1-----------6-6-9-9-9-8-8-|
E-----------------------------|

Solo (play Bridge)
Chorus (quiet)
Riff 1 x12

End on:
e---
B---
G-3-
D-3-
A-1-
E---