GLOBAL GUITAR TABS

http://www.globaltabs.50megs.com



Perhaps Vampires Is a Bit Strong But...
Arctic monkey
Tabbed by Ryan.c

Without a doubt one of the best songs on the album.
You need to listen to the song to get timing but other
That it should be easy.
As always you can tell me your suggestions 
just email me at Chhang7@hotmail.com  



Intro

e----------------------------------------|
B----------------------------------------|
G-4-2----------2------4-2----------2-----|
D-----4--4-2-4---4-2------4--4-2-4---4-2-|
A----------------------------------------|
E----------------------------------------|

e----------------------|
B----------------------|
G----------------------|
D--4-2----------2------|
A------4--4-2-4---4-2--|
E----------------------|

e|----------------------|
B|----------------------|
G|-----------6-6--5-----|
D|-4-4--7-7--6-6--5-----|
A|-4-4--7-7--4-4--3-----|
E|-2-2--5-5-------------|


Verse

e|----------------------|
B|----------------------|
G|-----------6-6--------|
D|-4-4--7-7--6-6--5-5---|
A|-4-4--7-7--4-4--5-5---|
E|-2-2--5-5-------7-7---|

Post verse(try and play it quickly or just play the root)

e|----------------------|
B|----------------------|
G|----------------------|
D|--9-9-9-9--11-9--7----|
A|--9-9-9-9--11-9--7----|
E|--7-7-7-7--9--7--5----|

Then itís the verse again 
With some feedback throughout 



Post verse
e|----------------------|
B|----------------------|
G|----------------------|
D|--9-9-9-9--11-9--7----|
A|--9-9-9-9--11-9--7----|
E|--7-7-7-7--9--7--5----|



This comes in half way through
e|----|
B|----|
G|----|
D|-9--|
A|-7--|
E|----|


Bridge part (with a phaser)

e|----------|
B|----------|
G|-12--11---|
D|-12--11---|
A|-10--9----|
E|----------|

Those 2 chords continue for a bit

1 guitar
e|------------------|
B|------------------|
G|------------------|
D|------------------|
A|---0--2--3--2--0--|
E|-2----------------|

e|--------------------------------------------|
B|--------------------------------------------|
G|--------------------------------------------|
D|------------------------------2-------------|
A|---0-2-3-----0-2-3-----0-2-3----4-2-3-2-0---| x2
E|-2---------2---------2----------------------|




2nd guitar with the solo
e|----------------------------------------|
B|----------------------------------------|
G|--------6--6-6-6-9-6-6-6-6-9-6-9-6-9-9--|
D|----7-9---------------------------------|
A|--9-------------------------------------|
E|----------------------------------------|

e|-----------------------------------|
B|-----------------------------------|
G|--------6------------------6-9-----|
D|----7-9----------------7-9-----9-7-|
A|--9-------7--7-7-7-7-9-------------|
E|-----------------------------------|

e|--------------------------------------------|
B|-------------------------------------7------|
G|-----6-9------6-9-------6-9------6-9---9----|
D|-7-9-----9-7\------9-7\-----9-7\---------7\-|
A|--------------------------------------------|
E|--------------------------------------------|

e|-----------------------------------------|
B|----------------------------------7------|
G|--6-9------6-9-------6-9------6-9---9----|
D|------9-7\------9-7\-----9-7\------------|
A|--------------------------------------9\-|
E|-----------------------------------------|


Outro 

e|-1/2-2-2-2--4/5-5-5-5--8/9-9-9-9---------|
B|-1/2-2-2-2--4/5-5-5-5--8/9-9-9-9---------|
G|-1/2-2-2-2--4/5-5-5-5--8/9-9-9-9---------|
D|-----------------------------------------|
A|-----------------------------------------| x5
E|-----------------------------------------|


The intro plays on top of this half way through

e----------------------------------------|
B----------------------------------------|
G-4-2----------2------4-2----------2-----|
D-----4--4-2-4---4-2------4--4-2-4---4-2-| 
A----------------------------------------|
E----------------------------------------|

e----------------------|
B----------------------|
G----------------------|
D--4-2----------2------|
A------4--4-2-4---4-2--|
E----------------------|


e|-----------------------|
B|-----------------------|
G|-----------6-6---------|
D|-4-4--7-7--6-6--5--5---|
A|-4-4--7-7--4-4--5--5---|
E|-2-2--5-5-------7--7---|