GLOBAL GUITAR TABS

http://www.globaltabs.50megs.com



Stereophonics - Pick A Part Thats New
Words : Kelly Jones
Music : Kelly Jones, Stuart Cable, Richard Jones

Chords Used:
A	002220
D	000323
E	022100
Dm	000231

Intro Riff:
e----------------------------------------------------------------
B------------------------------------9-11-11---9-11-11---9-11-11-
G----------------------------------0----------------------------- X4
D----9-11-11---9-11-11---9-11-11---------------------------------
A-0--------------------------------------------------------------
E----------------------------------------------------------------

Bridge Riff:
e-----------------------------------------
B----------------------------------------
G----------------------------------------
D--------------------------11-9--------
A---9-11-11---9-11-11-------9-11-
E-0-------------------------------------


Verse 1:
A
I've never been hear before
A		      D
Didn't know where to go
		D
Never met you before

Verse 2:
A
I've never been to your home
A		        D
That smells not unknown
D		Bridge Riff  
Footsteps made of stone
		Bridge Riff
Walking feels familiar

Chrous:
A		D		        
You can do all the things that you like to do
A		            D	
All around underground pick a part that' new
A		D
You can do all the things that you like to do
A		          D	                  Bridge Riff
All around upside down pick a part that' new

Verse 3:
A
People drinking on their own
A			D
Push buttons on the phone
		D
Was I here once before

Verse 4:
A
Is that my voice on the phone
A		          D
That last drink on my own
D		Bridge Riff
Did I ever leave at all
		Bridge Riff
Confusions familiar

Chrous:
A		D		        
You can do all the things that you like to do
A		            D	
All around underground pick a part that' new
A		D
You can do all the things that you like to do
A		          D	                  Bridge Riff
All around upside down pick a part that' new

Solo:
A	A	Dm	Dm
A	A	Dm	Dm
Bridge Riff

Chrous:
A		D		        
You can do all the things that you like to do
A		            D	
All around underground pick a part that' new
A		D
You can do all the things that you like to do
A		          D	                  Bridge Riff
All around upside down anything that' new
A		D		        
You can do all the things that you like to do
A		            D	
All around underground pick a part that' new
A		D
You can do all the things that you like to do
A		          D	                  Bridge Riff
All around upside down pick a part that' new


Outro:
		Bridge Riff
So what's new to you?
		Bridge Riff
What's new to you?
		Bridge Riff	A
What's new to you?