GLOBAL GUITAR TABS

http://www.globaltabs.50megs.com



-------------------------------------------------------------------------------
			     Pedalpusher - Stereophonics
-------------------------------------------------------------------------------
Tabbed by:Alex Adlington
Email: aaje.music@gmail.com

Tuning:eBGDAE

e|-----------------------------|      verse riff
B|-----------------------------|
G|-----------------------------|
D|-4-4---4-4---4-4---7-7-6-6---|
A|-4-4---4-4---4-4---7-7-6-6---|  
E|-2-2---2-2---2-2---5-5-4-4---|


  YOU'VE GOT IT ALLLLL    THIS  SIDE UP BUT YOU AIIIIIIN'T   GOT  IT DOWN PUSH THE PEDAL NOW

e|-----------------------------------------------------------------------------|
B|-----------------------------------------------------------------------------|
G|-----------------------------------------------------------------------------|
D|-4--4--4--4--4--4--4--4--4--4--4--4--4--4--4--4--6--6--6--6--6--6--6--6------|
A|-2--2--2--2--2--2--2--2--2--2--2--2--2--2--2--2--4--4--4--4--4--4--4--4------|
E|-----------------------------------------------------------------------------|
  

ONLY HEARD THE PREVIEW OF THIS ON THE FRENCH SITE SO THAT'S ALL I KNOW SO HOPE ITS OK
WITH YOU LOT, WHEN I GET THE ALBUM ON MONDAY YOU'LL HAVE A FULL VERSION OF THIS SONG.