GLOBAL GUITAR TABS

http://www.globaltabs.50megs.com



Tabbed by: Curtis
Email: Rocker4500@aol.com
Tuning: EADGBe (standard)

Riffs you will be needing -

<< Riff 1 >>
e|--------------------------------------------------------------------------|
B|--------------------------------------------------------------------------|
G|-7-11--7-11--7-11--7-11---------------------------------------------------|
D|--------------------------------------------------------------------------|
A|--------------------------------------------------------------------------|
E|--------------------------------------------------------------------------|

<< Riff 2 >>
e|--------------------------------------------------------------------------|
B|---7------7------7------7-------------------------------------------------|
G|-7--7---7--7---7--7---7--7------------------------------------------------|
D|--------------------------------------------------------------------------|
A|--------------------------------------------------------------------------|
E|--------------------------------------------------------------------------|

V1

Em                          Bm       Em
  Ever dance with the devil baby? Oh no...
        Bm
Make my day
Em            Bm        Em
  Do you feel lucky? Oh no...
                   Bm
Tomorrow's another day
Em                      Bm        Em
  Can you walk on water maybe? Oh no...
                Bm
Turn water into wine?


Bridge

(riff 1)                          (riff 2)    (riff 1)
     Can I buy you a drink there lady?     Oh no...
                         Bm Bm Bm Bm Bm {stop dead}
Can you tell me another lie?


Chorus >played twice<


                Bm   A
So be my Devil, Ange-el
               Em  A
Be my shooting sta-ar


V2

Em                          Bm       Em
  Have I seen you somewhere baby? Oh no...
               Bm
I need another line
(riff 1)                             (riff 2) (riff 1)
      Are you living the dream there lady? Oh no...
                        Bm Bm Bm Bm Bm {stop dead}
Can I tell you what's inside?


Chorus
(same as previous chorus)


Solo (use wah pedal for full effect)
played 4 times.

e|------------7-7-----------------------------------------------------------|
B|-7-10-7-10----------------------------------------------------------------|
G|--------------------------------------------------------------------------|
D|--------------------------------------------------------------------------|
A|--------------------------------------------------------------------------|
E|--------------------------------------------------------------------------|


V3

Em                   Bm       Em
  Stop the car there baby! Oh no...
                     Bm
You can't handle the truth


Bridge

(riff 1)                    (riff 2) (riff 1)
  So what's the point then lady, oh no...
                               Bm Bm Bm Bm Bm {stop dead}
If ya can't stand to play and lose


Chorus (as previous chorus) played 3 times. End on Bm

| /  slide up
| \  slide down
| h  hammer-on
| p  pull-off
| ~  vibrato
| +  harmonic
| x  Mute note