GLOBAL GUITAR TABS

http://www.globaltabs.50megs.com



#----------------------------------PLEASE NOTE----------------------------------#
# This file is the author's own work and represents their interpretation of the #
# song. You may only use this file for private study, scholarship, or research. #
#-------------------------------------------------------------------------------#

Watch them fly Sundays
Tab: steve_brown@btinternet.com

Intro

(distortion)
E  Eb  B  F#  E  Eb   (x2)

Verse

(clean) (slight variations around this model)

  I.............         just like to say
e--------------------------------------------------
B---11--------11-----------------------------------
G------11--------11--------------------------------
D-------------------------9----11---8--------------
A--------------------------------------9-----------
E--------------------------------------------------

Pre Chorus

(distortion)
C#  Eb  C#  Eb  C#  Eb  B

Chorus

(distortion)
E  Eb  B  F#  E  Eb   (x2)

Break

e-----------------------------------------------------------
B-----------------------------------------------------------
G----6b7-------6b7-------6b7--------------------------------
D--------6---------6---------6----6b7p5--6b7p5--6b7p5--6b7p5--5~~~~~~~
A-----------------------------------------------------------
E-----------------------------------------------------------

its just a rough guide but a nice song to hear and play