GLOBAL GUITAR TABS

http://www.globaltabs.50megs.com



#----------------------------------PLEASE NOTE----------------------------------#
# This file is the author's own work and represents their interpretation of the #
# song. You may only use this file for private study, scholarship, or research. #
#-------------------------------------------------------------------------------#

Stereophonics
Vegas Two Times
Jeep
Tabbed by Scott Morgan scottbut@nme.com

Intro/Main riff

After talking/guitar sounds/gospel singers

There's more than one guitar here but this is the main riff, it will not sound as heavy as teh record, you could try using a delay pedal set short(about 50ms) to make the guitar sound doubled, or a pitchshifter set up a fifth to make every note sound like a full power chord.  If you use a pitchshifter just play the single bass notes rather than the chords.

------------------------------------------------------------|
------------------------------------------------------------|
-7----------------------------------------------------------|
-7-----------------------------------------------------5--7-|
-5----3--0--5--3--0--5--3--0--5--3--0---4---5---6---7--3--5-|
----------------------------------------2---3---4---5-------|

Verse

I'm not sure here, this is definately a D type chord, but what type I'm not sure of, so try these ones and see which you think is best.

 D7#9   ?      ?
-----------------|
-8------6------6-|
-5--or--4--or--5-|
-4------3------6-|
-5------5------5-|
-----------------|

afer that it changes to an E type chord but, again I'm not sure which type yet, it could be this.

---|
-3-|
-1-|
-0-|
-2-|
-0-|