GLOBAL GUITAR TABS

http://www.globaltabs.50megs.com



#----------------------------------PLEASE NOTE----------------------------------#
# This file is the author's own work and represents their interpretation of the #
# song. You may only use this file for private study, scholarship, or research. #
#-------------------------------------------------------------------------------#

Stereophonics
Caravan Holiday
Jeep
Tabbed by Scott Morgan scottbut@nme.com

Intro

Gmaj6             D?                Gmaj6             D7
-----------------|-----------------|-----------------|---2---2---2---2-|
---0---0---0---0-|---0---0---0---0-|---0---0---0---0-|---1---1---1---1-|
---0---0---0---0-|-2-2---2---2---2-|---0---0---0---0-|-2---2---2---2---|
-0---------------|-0---0---0---0---|-0---------------|-0---0---0---0---|
-2---------------|-----------------|-2---------------|-----------------|
-3---3---3---3---|-----------------|-3---3---3---3---|-----------------|

Verse

Repeat the first 2 parts as many times necessary.

Gmaj6             D?                D7
-----------------|-----------------|---2---2---2---2-|
---0---0---0---0-|---0---0---0---0-|---1---1---1---1-|
---0---0---0---0-|-2-2---2---2---2-|-2---2---2---2---|
-0---------------|-0---0---0---0---|-0---0---0---0---|
-2---------------|-----------------|-----------------|
-3---3---3---3---|-----------------|-----------------|

Bridge

Am                                                    D    Dsus4 Dsus5?
---------------------------------|------------------|-2----3-----5-|
---1---1---1---1---1---1---1---1-|-1st part of verse|-3----3-----3-|
---2---2---2---2---2---2---2---2-|-Gmaj6 here-------|-2----2-----2-|
-2-------------------------------|------------------|-0----0-----0-|
-0---0---0---0---0---0---0---0---|------------------|--------------|
---------------------------------|------------------|--------------|

You should be able to play the whole song from that.