GLOBAL GUITAR TABS

http://www.globaltabs.50megs.com



-----------------------------------------------------------------------
                    Territorial Pissings


(E bar chords on frets 5, 13 and 10)


A5     F5     D5     A5       F5      D5
When I was an alien, cultures weren't opinions.


A5                   F5              D5
Gotta find a way, to find a way, I'd better wait.


Never met a wise man, if so it's a woman

Bridge:

  |<--   7x    --->|
E |----------------|---------------
B |----------------|--------7------
G |----------------|---------7-----
D |-----7-------7--|------7---7----
A |-----7-------7--|------7----7---
E |-5-5-----5-5----|--5-5----------


Just because you're paranoid, don't mean they're not after you
-----------------------------------------------------------------------