GLOBAL GUITAR TABS

http://www.globaltabs.50megs.com



-----------------------------------------------------------------------
                       Something in the Way

D|---------------------------------|
A|---------------------------------|
F|---------------------------------|
C|---4-----4---4-4-0-----0---0-0---|
G|---4-----4---4-4-0-----0---0-0---|
C|---4-----4---4-4-0---------0-----|

Underneath the bridge
The tarp has sprung a leak
And the animals I've trapped
Have all become my pets
And I'm living off of grass
And the drippings from the ceiling
But it's ok to eat fish
Cause they haven't any feelings



e|--------------------------------------|
B|-------------------------3-3----3-3---|
G|-------------------------2-2----2-2---|
B|---4-----4-4----4-4-0----0-0----0-0---|
A|---4-----4-4----4-4-0----0-0----0-0---|
E|---4-----4-4----4-4-0-----------------|

Something in the way,  Mmmm...
Something in the way, yeah,  Mmmm...