GLOBAL GUITAR TABS

http://www.globaltabs.50megs.com



Lounge Act 
Kurt Cobain
nevermind

bass intro:


-------------|-------|-----------|----------|-------|-------------
--------5----|-------|-----------|----------|-------|-------------
------6------|-------|---6-5-----|----6-5---|-------|---6-5-------
----8------4-|-4-3-4-|-4-----8-6-|--8-----4-|-4-3-4-|-4-----8-7---

   
B    G           C       B  
Truth covered in security    
G          c             b
I can't let you smother me
G               C               Bm
I'd like to but it wouldn't work
G            C                 Bm                         
Trading off and taking turns
G                   C
I don't regret a thing  

And
     A5      E       A          D5     G           E
I've got this friend you see who makes me feel
E      A         D5    G               E
And I wanted more than I could I steal
       A          D5    G              E   
I'll arrest myself I'll wear a shield
         A           D5   G        A      G#  G5
I'll go out of my way to prove I still  
          A        G#  G5
Smell her on you

Don't, tell me what I wanna hear
Afraid of never knowning fear
Experience anything yoy need
I'll keep fighting jealousy
Until it's fucking gone

Chorus X2

Truth covered in security
I can't let you smother me
I'd like to but it wouldn't work
Trading off and taking turns
I don't regret a thing

I've got this friend, you see
Who makes me feel
And I wanted more
Than I could steal
I'll arrest myself
And wear a shield
I'll go out of my way
To make you a deal
We've make a pact
To learn from who
Ever we want
Without new rules
We'll share what's lost and what we grew
They'll go out of their way
To prove they still
Smell her on you
They still, smell her on you
Smell her on you

Intro:
 -----------------------------------------------------
 ---------4----4---4---------0------5----5----5-------
 ----2----4----4---4----0----0------5----5----5-----2-
 ----2----4----4---4----0----0------5----5----5-----2-
 ----0----2----2---2----------------3----3----3-----2-
 -----------------------3----3------------------------ 
   TRUHT…..                           
------------------------------------------------------    
-----4--------------------0------5---5—-5-------4-----
-----4------4---4—-4—-0---0------5---5—-5---2---4----4  
-----4------4---4—-4—-0---0------5---5--5---2---4----4
-----2---2—-2---2—-2-------------3---3—-3---2---2--2-2
----------------------3---3---------------------------
    
----------------------------------------
----------------------------------0---5-
--4-------4---4---4---0---0---0---0---5-       
--4-------4---4---4---0---0---0---0---5-
--2---2---2---2---2-------------------3- 
----------------------3---3---3---------
Chorus
I`VE GOT THIS….
-----------------------------------------------------
---------2----2---2---2—-0---3---0---0-----0---2---2-
--2--2---1----2---2---2--0---2---0---0--0--0---1---2-
--2--2---2----2---2---2------0---0---0--0--0---2---2-
--0--0---2----0---0---0------0-----------------2---0-
---------0-----------------------3-------------0-----

              
--------------------------------------------------------
---2—2--0---3--0--0--0--0--2---2--2—-2—-0—-3—-0—-0-0-0--
---2-2--0---2—-0—-0—-0—-0—-1---2—-2—-2—-0—-2—-0—-0-0-0--
---2-2------0—-0—-0—-0—-0—-2---2—-2--2--------0--0-0-0-0
---0----0------0---------------------2—0---0—-0------0--
---------------3-----------0------------------3---------

-------------------------------------------------------- 
----2---2--2--2--0--3----0----0--0--0---2---2--2--2--0--
----1---2--2--2--0--2----0----0--0--0---1---2--2--2--0--
----2---2--2--2-----0----0----0--0--0---2---2--2--2-----
----2---0--0--0-----0-------------------2---0--0--0-----
----0--------------------3--------------0---------------

--------------------------------------------------
----3---0---0--0—-0--2---2--2--2--0--3---0--0--0--
----2---0---0--0  0--1---2--2--2--0--2---0--0--0--
----0---0---0--0—-0—-2---2--2--2-----0---0--0--0--
----0--------------------2--0--0--0------0--------
---------------3------------0------------3--------

-------------------------------------------------- 
---2-----------0---0----2-------------------------  
---2-----------0---0----2--------------0---0------
---2--------0-----------2----------0---0---0---0--
---0-----3-----3---3----0----------3-----------0—-  
---------4-------------------4---------3---3---0--
 

--------------------
2-----------------2-
----------0---0---2-
-------0—-0---0---2-       
-----3------------0-        
---3------3---3-----