GLOBAL GUITAR TABS

http://www.globaltabs.50megs.com



-----------------------------------------------------------------------
                           Lithium


(tune down one *full* step, to play along w/ the album)


   E5       G#5         C#5         A5         C5     D5
e-----------------------------------------------------------------
a-----------------------------------------------------------------
d---------------------------6--x--------7--------------------7----
g---------------------------6--x------7--------5--5--5s7--7--7----
b---2-----------6--------4----------5----------3--3--3s5--5--5--0-
E---0--x--0--4-----x--0----------0---------0----------------------
   I'm     so          happy   'cause today    I've found my friends,


  B5        D5
e-------------------------
a-------------------------
d------------------7------
g-4--4--4--4s7--7--7------
b-2--2--2--2s5--5--5---0--
E-------------------------
  they're  in   my  head. . .

I'm so ugly but that's ok, 'cause so are you, we've broke our mirrors
Sunday morning is everyday for all I care and I'm not scared
Light my candles in a daze 'cause I've found god

I'm so lonely and that's ok, I shaved my head, and I'm not sad
And just maybe I'm to blame for all I've heard, and I'm not sure
I'm so excited I can't wait to meet you there, and I dont' care
I'm so horny but that's ok, my will is good


   A5          C5         A5        C5  D5  C5    A5        C5     A5
e--------------------------------------------------------------------
a--------------------------------------------------------------------
d--2-----------5---5------2---2-----5-s-7-s-5------2---2----5---5----
g--2-----------5---5------2---2-----5-s-7-s-5------2---2----3---3----
b--0---0---0---3---3---0--0---0--0--3-s-5-s-3------0---0----3---3--0-
E-----------------------------------------------3--------------------
     I       like you     I'm not  gonna    crack      I  miss you


   A5       C5
e---------------------------
a---------------------------
d--2---2-----5---5---5------
g--2---2-----5---5---5------
b--0---0--0--3---3---3----0-
E---------------------------
   I'm not  gonna    crack