GLOBAL GUITAR TABS

http://www.globaltabs.50megs.com



-----------------------------------------------------------------------
                                Breed

Intro:
e|---------------------------------|---------------------------------|
B|---------------------------------|---------------------------------|
G|-*-----------------------------*-|-*-------------------------------|
B|-*--4--4--4--4--7-----------2--*-|-*--4--4--4--4--7----------------|
A|----4--4--4--4--7-Bend------2----|----4--4--4--4--7-Bend-----------|
E|----2--2--0--2--5-----------0----|----2--2--0--2--5-----------0----|


Riff 1:
e|---------------------------------|---------------------------------|
B|---------------------------------|---------------------------------|
G|-*-------------------------------|-------------------------------*-|
B|-*--4--4-------------------------|----4--4-----------------------*-|
A|----4--4-------------------------|----4--4-------------------------|
E|----2--2--0--2--5-Bend------0----|----2--2--0--2--5-Bend------0----|


Verse:
e|-----------------------------|-----|-----|-------------------------|
B|-----------------------------|-----|-----|-------------------------|
G|-----------------------------|-----|-----|-------------------------|
B|---11-11-11-11--11-11-11-11--|--%--|--%--|--11-11-11---------------|
A|---9--9--9--9---9--9--9--9---|-----|-----|--9--9--9--9-Bend--9-7---|
E|-----------------------------|-----|-----|-------------------------|

e|-----------------------------|
B|-----------------------------|
G|-----------------------------|
B|----4-4-4-4---4-4-4-0--------|
A|----4-4-4-4---4-4-4-1--------|
E|----2-2-2-2---2-2-2----------|

I don't care, I don't care, I don't care, I don't care, I don't care
Care if I'm old

I don't mind, I don't mind, I don't mind, I don't mind, I don't mind
If I don't have a mind

Get away, get away, get away, get away, get away, get away, get away
Way from your home

I'm afraid, I'm afraid, I'm afraid, I'm afraid, I'm afraid, I'm afraid
Of a ghost


Chorus:

      D           A                    C5          B5
e|----2--2--2----------------------|---------------------------------|
B|----3--3--3--X--2------2--X------|---------------------------------|
G|----2--2--2--X--2------2--X------|---5--5--5--X--4------4--X-------|
B|----0--0--0--X--2------2--X------|---5--5--5--X--4------4--X-------|
A|---------------------------------|---3--3--3--X--2------2--X-------|
E|---------------------------------|---------------------------------|

Even if you have
Even if you need
I don't mean to stare
We don't have to breed
We could plant a house
We could build a tree
I don't even care
We could have all three

She said (with Riff 1)